ISO-10303-21;
HEADER;
/* Generated by software containing ST-Developer
 * from STEP Tools, Inc. (www.steptools.com) 
 */

FILE_DESCRIPTION(
/* description */ ('Blocchetto L=50 mm M8 prof. cava 8 mm per GR-80'),
/* implementation_level */ '2;1');

FILE_NAME(
/* name */ 'SPM80C08-50-GR.stp',
/* time_stamp */ '2025-03-21T17:57:04+01:00',
/* author */ ('Davide'),
/* organization */ (''),
/* preprocessor_version */ 'ST-DEVELOPER v20',
/* originating_system */ 'Autodesk Inventor 2024',
/* authorisation */ '');

FILE_SCHEMA (('AUTOMOTIVE_DESIGN { 1 0 10303 214 3 1 1 }'));
ENDSEC;

DATA;
#10=MECHANICAL_DESIGN_GEOMETRIC_PRESENTATION_REPRESENTATION('',(#13),#525);
#11=SHAPE_REPRESENTATION_RELATIONSHIP('SRR','None',#532,#12);
#12=ADVANCED_BREP_SHAPE_REPRESENTATION('',(#14),#524);
#13=STYLED_ITEM('',(#541),#14);
#14=MANIFOLD_SOLID_BREP('Solido1',#308);
#15=CYLINDRICAL_SURFACE('',#339,7.);
#16=CYLINDRICAL_SURFACE('',#341,4.25);
#17=CYLINDRICAL_SURFACE('',#346,7.);
#18=CYLINDRICAL_SURFACE('',#348,4.25);
#19=FACE_BOUND('',#56,.T.);
#20=FACE_BOUND('',#60,.T.);
#21=FACE_BOUND('',#64,.T.);
#22=FACE_BOUND('',#65,.T.);
#23=FACE_BOUND('',#70,.T.);
#24=FACE_BOUND('',#71,.T.);
#25=CIRCLE('',#337,7.);
#26=CIRCLE('',#338,4.25);
#27=CIRCLE('',#340,7.);
#28=CIRCLE('',#342,4.25);
#29=CIRCLE('',#344,7.);
#30=CIRCLE('',#345,4.25);
#31=CIRCLE('',#347,7.);
#32=CIRCLE('',#349,4.25);
#33=FACE_OUTER_BOUND('',#50,.T.);
#34=FACE_OUTER_BOUND('',#51,.T.);
#35=FACE_OUTER_BOUND('',#52,.T.);
#36=FACE_OUTER_BOUND('',#53,.T.);
#37=FACE_OUTER_BOUND('',#54,.T.);
#38=FACE_OUTER_BOUND('',#55,.T.);
#39=FACE_OUTER_BOUND('',#57,.T.);
#40=FACE_OUTER_BOUND('',#58,.T.);
#41=FACE_OUTER_BOUND('',#59,.T.);
#42=FACE_OUTER_BOUND('',#61,.T.);
#43=FACE_OUTER_BOUND('',#62,.T.);
#44=FACE_OUTER_BOUND('',#63,.T.);
#45=FACE_OUTER_BOUND('',#66,.T.);
#46=FACE_OUTER_BOUND('',#67,.T.);
#47=FACE_OUTER_BOUND('',#68,.T.);
#48=FACE_OUTER_BOUND('',#69,.T.);
#49=FACE_OUTER_BOUND('',#72,.T.);
#50=EDGE_LOOP('',(#200,#201,#202,#203));
#51=EDGE_LOOP('',(#204,#205,#206,#207));
#52=EDGE_LOOP('',(#208,#209,#210,#211,#212,#213,#214,#215,#216));
#53=EDGE_LOOP('',(#217,#218,#219,#220));
#54=EDGE_LOOP('',(#221,#222,#223,#224));
#55=EDGE_LOOP('',(#225));
#56=EDGE_LOOP('',(#226));
#57=EDGE_LOOP('',(#227,#228,#229,#230));
#58=EDGE_LOOP('',(#231,#232,#233,#234));
#59=EDGE_LOOP('',(#235));
#60=EDGE_LOOP('',(#236));
#61=EDGE_LOOP('',(#237,#238,#239,#240));
#62=EDGE_LOOP('',(#241,#242,#243,#244));
#63=EDGE_LOOP('',(#245,#246,#247,#248));
#64=EDGE_LOOP('',(#249));
#65=EDGE_LOOP('',(#250));
#66=EDGE_LOOP('',(#251,#252,#253,#254));
#67=EDGE_LOOP('',(#255,#256,#257,#258));
#68=EDGE_LOOP('',(#259,#260,#261,#262));
#69=EDGE_LOOP('',(#263,#264,#265,#266));
#70=EDGE_LOOP('',(#267));
#71=EDGE_LOOP('',(#268));
#72=EDGE_LOOP('',(#269,#270,#271,#272,#273,#274,#275,#276,#277));
#73=LINE('',#443,#104);
#74=LINE('',#445,#105);
#75=LINE('',#447,#106);
#76=LINE('',#448,#107);
#77=LINE('',#451,#108);
#78=LINE('',#453,#109);
#79=LINE('',#454,#110);
#80=LINE('',#457,#111);
#81=LINE('',#459,#112);
#82=LINE('',#461,#113);
#83=LINE('',#463,#114);
#84=LINE('',#465,#115);
#85=LINE('',#467,#116);
#86=LINE('',#468,#117);
#87=LINE('',#471,#118);
#88=LINE('',#473,#119);
#89=LINE('',#474,#120);
#90=LINE('',#476,#121);
#91=LINE('',#485,#122);
#92=LINE('',#488,#123);
#93=LINE('',#498,#124);
#94=LINE('',#501,#125);
#95=LINE('',#505,#126);
#96=LINE('',#506,#127);
#97=LINE('',#509,#128);
#98=LINE('',#510,#129);
#99=LINE('',#513,#130);
#100=LINE('',#514,#131);
#101=LINE('',#517,#132);
#102=LINE('',#518,#133);
#103=LINE('',#520,#134);
#104=VECTOR('',#360,10.);
#105=VECTOR('',#361,10.);
#106=VECTOR('',#362,10.);
#107=VECTOR('',#363,10.);
#108=VECTOR('',#366,10.);
#109=VECTOR('',#367,10.);
#110=VECTOR('',#368,10.);
#111=VECTOR('',#371,10.);
#112=VECTOR('',#372,10.);
#113=VECTOR('',#373,10.);
#114=VECTOR('',#374,10.);
#115=VECTOR('',#375,10.);
#116=VECTOR('',#376,10.);
#117=VECTOR('',#377,10.);
#118=VECTOR('',#380,10.);
#119=VECTOR('',#381,10.);
#120=VECTOR('',#382,10.);
#121=VECTOR('',#385,10.);
#122=VECTOR('',#396,7.);
#123=VECTOR('',#399,4.25);
#124=VECTOR('',#412,7.);
#125=VECTOR('',#415,4.25);
#126=VECTOR('',#420,10.);
#127=VECTOR('',#421,10.);
#128=VECTOR('',#424,10.);
#129=VECTOR('',#425,10.);
#130=VECTOR('',#428,10.);
#131=VECTOR('',#429,10.);
#132=VECTOR('',#432,10.);
#133=VECTOR('',#433,10.);
#134=VECTOR('',#436,10.);
#135=VERTEX_POINT('',#441);
#136=VERTEX_POINT('',#442);
#137=VERTEX_POINT('',#444);
#138=VERTEX_POINT('',#446);
#139=VERTEX_POINT('',#450);
#140=VERTEX_POINT('',#452);
#141=VERTEX_POINT('',#456);
#142=VERTEX_POINT('',#458);
#143=VERTEX_POINT('',#460);
#144=VERTEX_POINT('',#462);
#145=VERTEX_POINT('',#464);
#146=VERTEX_POINT('',#466);
#147=VERTEX_POINT('',#470);
#148=VERTEX_POINT('',#472);
#149=VERTEX_POINT('',#478);
#150=VERTEX_POINT('',#480);
#151=VERTEX_POINT('',#483);
#152=VERTEX_POINT('',#487);
#153=VERTEX_POINT('',#491);
#154=VERTEX_POINT('',#493);
#155=VERTEX_POINT('',#496);
#156=VERTEX_POINT('',#500);
#157=VERTEX_POINT('',#504);
#158=VERTEX_POINT('',#508);
#159=VERTEX_POINT('',#512);
#160=VERTEX_POINT('',#516);
#161=EDGE_CURVE('',#135,#136,#73,.T.);
#162=EDGE_CURVE('',#136,#137,#74,.T.);
#163=EDGE_CURVE('',#137,#138,#75,.T.);
#164=EDGE_CURVE('',#138,#135,#76,.T.);
#165=EDGE_CURVE('',#136,#139,#77,.T.);
#166=EDGE_CURVE('',#140,#139,#78,.T.);
#167=EDGE_CURVE('',#137,#140,#79,.T.);
#168=EDGE_CURVE('',#135,#141,#80,.T.);
#169=EDGE_CURVE('',#141,#142,#81,.T.);
#170=EDGE_CURVE('',#142,#143,#82,.T.);
#171=EDGE_CURVE('',#143,#144,#83,.T.);
#172=EDGE_CURVE('',#144,#145,#84,.T.);
#173=EDGE_CURVE('',#145,#146,#85,.T.);
#174=EDGE_CURVE('',#139,#146,#86,.T.);
#175=EDGE_CURVE('',#147,#145,#87,.T.);
#176=EDGE_CURVE('',#147,#148,#88,.T.);
#177=EDGE_CURVE('',#146,#148,#89,.T.);
#178=EDGE_CURVE('',#148,#140,#90,.T.);
#179=EDGE_CURVE('',#149,#149,#25,.T.);
#180=EDGE_CURVE('',#150,#150,#26,.T.);
#181=EDGE_CURVE('',#151,#151,#27,.T.);
#182=EDGE_CURVE('',#151,#149,#91,.T.);
#183=EDGE_CURVE('',#150,#152,#92,.T.);
#184=EDGE_CURVE('',#152,#152,#28,.T.);
#185=EDGE_CURVE('',#153,#153,#29,.T.);
#186=EDGE_CURVE('',#154,#154,#30,.T.);
#187=EDGE_CURVE('',#155,#155,#31,.T.);
#188=EDGE_CURVE('',#155,#153,#93,.T.);
#189=EDGE_CURVE('',#154,#156,#94,.T.);
#190=EDGE_CURVE('',#156,#156,#32,.T.);
#191=EDGE_CURVE('',#157,#138,#95,.T.);
#192=EDGE_CURVE('',#157,#141,#96,.T.);
#193=EDGE_CURVE('',#158,#157,#97,.T.);
#194=EDGE_CURVE('',#158,#142,#98,.T.);
#195=EDGE_CURVE('',#159,#158,#99,.T.);
#196=EDGE_CURVE('',#159,#143,#100,.T.);
#197=EDGE_CURVE('',#160,#159,#101,.T.);
#198=EDGE_CURVE('',#160,#144,#102,.T.);
#199=EDGE_CURVE('',#147,#160,#103,.T.);
#200=ORIENTED_EDGE('',*,*,#161,.T.);
#201=ORIENTED_EDGE('',*,*,#162,.T.);
#202=ORIENTED_EDGE('',*,*,#163,.T.);
#203=ORIENTED_EDGE('',*,*,#164,.T.);
#204=ORIENTED_EDGE('',*,*,#162,.F.);
#205=ORIENTED_EDGE('',*,*,#165,.T.);
#206=ORIENTED_EDGE('',*,*,#166,.F.);
#207=ORIENTED_EDGE('',*,*,#167,.F.);
#208=ORIENTED_EDGE('',*,*,#161,.F.);
#209=ORIENTED_EDGE('',*,*,#168,.T.);
#210=ORIENTED_EDGE('',*,*,#169,.T.);
#211=ORIENTED_EDGE('',*,*,#170,.T.);
#212=ORIENTED_EDGE('',*,*,#171,.T.);
#213=ORIENTED_EDGE('',*,*,#172,.T.);
#214=ORIENTED_EDGE('',*,*,#173,.T.);
#215=ORIENTED_EDGE('',*,*,#174,.F.);
#216=ORIENTED_EDGE('',*,*,#165,.F.);
#217=ORIENTED_EDGE('',*,*,#175,.F.);
#218=ORIENTED_EDGE('',*,*,#176,.T.);
#219=ORIENTED_EDGE('',*,*,#177,.F.);
#220=ORIENTED_EDGE('',*,*,#173,.F.);
#221=ORIENTED_EDGE('',*,*,#178,.T.);
#222=ORIENTED_EDGE('',*,*,#166,.T.);
#223=ORIENTED_EDGE('',*,*,#174,.T.);
#224=ORIENTED_EDGE('',*,*,#177,.T.);
#225=ORIENTED_EDGE('',*,*,#179,.T.);
#226=ORIENTED_EDGE('',*,*,#180,.F.);
#227=ORIENTED_EDGE('',*,*,#181,.F.);
#228=ORIENTED_EDGE('',*,*,#182,.T.);
#229=ORIENTED_EDGE('',*,*,#179,.F.);
#230=ORIENTED_EDGE('',*,*,#182,.F.);
#231=ORIENTED_EDGE('',*,*,#180,.T.);
#232=ORIENTED_EDGE('',*,*,#183,.T.);
#233=ORIENTED_EDGE('',*,*,#184,.F.);
#234=ORIENTED_EDGE('',*,*,#183,.F.);
#235=ORIENTED_EDGE('',*,*,#185,.T.);
#236=ORIENTED_EDGE('',*,*,#186,.F.);
#237=ORIENTED_EDGE('',*,*,#187,.F.);
#238=ORIENTED_EDGE('',*,*,#188,.T.);
#239=ORIENTED_EDGE('',*,*,#185,.F.);
#240=ORIENTED_EDGE('',*,*,#188,.F.);
#241=ORIENTED_EDGE('',*,*,#186,.T.);
#242=ORIENTED_EDGE('',*,*,#189,.T.);
#243=ORIENTED_EDGE('',*,*,#190,.F.);
#244=ORIENTED_EDGE('',*,*,#189,.F.);
#245=ORIENTED_EDGE('',*,*,#164,.F.);
#246=ORIENTED_EDGE('',*,*,#191,.F.);
#247=ORIENTED_EDGE('',*,*,#192,.T.);
#248=ORIENTED_EDGE('',*,*,#168,.F.);
#249=ORIENTED_EDGE('',*,*,#181,.T.);
#250=ORIENTED_EDGE('',*,*,#187,.T.);
#251=ORIENTED_EDGE('',*,*,#192,.F.);
#252=ORIENTED_EDGE('',*,*,#193,.F.);
#253=ORIENTED_EDGE('',*,*,#194,.T.);
#254=ORIENTED_EDGE('',*,*,#169,.F.);
#255=ORIENTED_EDGE('',*,*,#194,.F.);
#256=ORIENTED_EDGE('',*,*,#195,.F.);
#257=ORIENTED_EDGE('',*,*,#196,.T.);
#258=ORIENTED_EDGE('',*,*,#170,.F.);
#259=ORIENTED_EDGE('',*,*,#196,.F.);
#260=ORIENTED_EDGE('',*,*,#197,.F.);
#261=ORIENTED_EDGE('',*,*,#198,.T.);
#262=ORIENTED_EDGE('',*,*,#171,.F.);
#263=ORIENTED_EDGE('',*,*,#175,.T.);
#264=ORIENTED_EDGE('',*,*,#172,.F.);
#265=ORIENTED_EDGE('',*,*,#198,.F.);
#266=ORIENTED_EDGE('',*,*,#199,.F.);
#267=ORIENTED_EDGE('',*,*,#184,.T.);
#268=ORIENTED_EDGE('',*,*,#190,.T.);
#269=ORIENTED_EDGE('',*,*,#163,.F.);
#270=ORIENTED_EDGE('',*,*,#167,.T.);
#271=ORIENTED_EDGE('',*,*,#178,.F.);
#272=ORIENTED_EDGE('',*,*,#176,.F.);
#273=ORIENTED_EDGE('',*,*,#199,.T.);
#274=ORIENTED_EDGE('',*,*,#197,.T.);
#275=ORIENTED_EDGE('',*,*,#195,.T.);
#276=ORIENTED_EDGE('',*,*,#193,.T.);
#277=ORIENTED_EDGE('',*,*,#191,.T.);
#278=PLANE('',#331);
#279=PLANE('',#332);
#280=PLANE('',#333);
#281=PLANE('',#334);
#282=PLANE('',#335);
#283=PLANE('',#336);
#284=PLANE('',#343);
#285=PLANE('',#350);
#286=PLANE('',#351);
#287=PLANE('',#352);
#288=PLANE('',#353);
#289=PLANE('',#354);
#290=PLANE('',#355);
#291=ADVANCED_FACE('',(#33),#278,.T.);
#292=ADVANCED_FACE('',(#34),#279,.T.);
#293=ADVANCED_FACE('',(#35),#280,.T.);
#294=ADVANCED_FACE('',(#36),#281,.T.);
#295=ADVANCED_FACE('',(#37),#282,.T.);
#296=ADVANCED_FACE('',(#38,#19),#283,.T.);
#297=ADVANCED_FACE('',(#39),#15,.F.);
#298=ADVANCED_FACE('',(#40),#16,.F.);
#299=ADVANCED_FACE('',(#41,#20),#284,.T.);
#300=ADVANCED_FACE('',(#42),#17,.F.);
#301=ADVANCED_FACE('',(#43),#18,.F.);
#302=ADVANCED_FACE('',(#44,#21,#22),#285,.T.);
#303=ADVANCED_FACE('',(#45),#286,.T.);
#304=ADVANCED_FACE('',(#46),#287,.T.);
#305=ADVANCED_FACE('',(#47),#288,.T.);
#306=ADVANCED_FACE('',(#48,#23,#24),#289,.T.);
#307=ADVANCED_FACE('',(#49),#290,.T.);
#308=CLOSED_SHELL('',(#291,#292,#293,#294,#295,#296,#297,#298,#299,#300,
#301,#302,#303,#304,#305,#306,#307));
#309=DERIVED_UNIT_ELEMENT(#312,1.);
#310=DERIVED_UNIT_ELEMENT(#527,-3.);
#311=DIMENSIONAL_EXPONENTS(0.,1.,0.,0.,0.,0.,0.);
#312=(
CONVERSION_BASED_UNIT('gram',#314)
MASS_UNIT()
NAMED_UNIT(#311)
);
#313=(
MASS_UNIT()
NAMED_UNIT(*)
SI_UNIT(.KILO.,.GRAM.)
);
#314=MASS_MEASURE_WITH_UNIT(MASS_MEASURE(0.001),#313);
#315=DERIVED_UNIT((#309,#310));
#316=MEASURE_REPRESENTATION_ITEM('density measure',
POSITIVE_RATIO_MEASURE(2.7),#315);
#317=PROPERTY_DEFINITION_REPRESENTATION(#322,#319);
#318=PROPERTY_DEFINITION_REPRESENTATION(#323,#320);
#319=REPRESENTATION('material name',(#321),#524);
#320=REPRESENTATION('density',(#316),#524);
#321=DESCRIPTIVE_REPRESENTATION_ITEM('Alluminio 6061','Alluminio 6061');
#322=PROPERTY_DEFINITION('material property','material name',#534);
#323=PROPERTY_DEFINITION('material property','density of part',#534);
#324=DATE_TIME_ROLE('creation_date');
#325=APPLIED_DATE_AND_TIME_ASSIGNMENT(#326,#324,(#534));
#326=DATE_AND_TIME(#327,#328);
#327=CALENDAR_DATE(2025,19,2);
#328=LOCAL_TIME(0,0,0.,#329);
#329=COORDINATED_UNIVERSAL_TIME_OFFSET(0,0,.BEHIND.);
#330=AXIS2_PLACEMENT_3D('',#439,#356,#357);
#331=AXIS2_PLACEMENT_3D('',#440,#358,#359);
#332=AXIS2_PLACEMENT_3D('',#449,#364,#365);
#333=AXIS2_PLACEMENT_3D('',#455,#369,#370);
#334=AXIS2_PLACEMENT_3D('',#469,#378,#379);
#335=AXIS2_PLACEMENT_3D('',#475,#383,#384);
#336=AXIS2_PLACEMENT_3D('',#477,#386,#387);
#337=AXIS2_PLACEMENT_3D('',#479,#388,#389);
#338=AXIS2_PLACEMENT_3D('',#481,#390,#391);
#339=AXIS2_PLACEMENT_3D('',#482,#392,#393);
#340=AXIS2_PLACEMENT_3D('',#484,#394,#395);
#341=AXIS2_PLACEMENT_3D('',#486,#397,#398);
#342=AXIS2_PLACEMENT_3D('',#489,#400,#401);
#343=AXIS2_PLACEMENT_3D('',#490,#402,#403);
#344=AXIS2_PLACEMENT_3D('',#492,#404,#405);
#345=AXIS2_PLACEMENT_3D('',#494,#406,#407);
#346=AXIS2_PLACEMENT_3D('',#495,#408,#409);
#347=AXIS2_PLACEMENT_3D('',#497,#410,#411);
#348=AXIS2_PLACEMENT_3D('',#499,#413,#414);
#349=AXIS2_PLACEMENT_3D('',#502,#416,#417);
#350=AXIS2_PLACEMENT_3D('',#503,#418,#419);
#351=AXIS2_PLACEMENT_3D('',#507,#422,#423);
#352=AXIS2_PLACEMENT_3D('',#511,#426,#427);
#353=AXIS2_PLACEMENT_3D('',#515,#430,#431);
#354=AXIS2_PLACEMENT_3D('',#519,#434,#435);
#355=AXIS2_PLACEMENT_3D('',#521,#437,#438);
#356=DIRECTION('axis',(0.,0.,1.));
#357=DIRECTION('refdir',(1.,0.,0.));
#358=DIRECTION('center_axis',(-0.707106781186548,0.707106781186548,0.));
#359=DIRECTION('ref_axis',(0.,0.,1.));
#360=DIRECTION('',(-0.707106781186548,-0.707106781186548,0.));
#361=DIRECTION('',(0.,0.,1.));
#362=DIRECTION('',(0.707106781186548,0.707106781186548,0.));
#363=DIRECTION('',(0.,0.,-1.));
#364=DIRECTION('center_axis',(-1.,0.,0.));
#365=DIRECTION('ref_axis',(0.,-1.,0.));
#366=DIRECTION('',(4.28626379701575E-16,-1.,0.));
#367=DIRECTION('',(1.49406909495977E-16,6.40397427196613E-32,-1.));
#368=DIRECTION('',(0.,-1.,0.));
#369=DIRECTION('center_axis',(0.,0.,-1.));
#370=DIRECTION('ref_axis',(-1.,0.,0.));
#371=DIRECTION('',(1.,0.,0.));
#372=DIRECTION('',(6.25477760352201E-16,-1.,0.));
#373=DIRECTION('',(-1.,0.,0.));
#374=DIRECTION('',(3.49676543189026E-16,-1.,0.));
#375=DIRECTION('',(-1.,-4.28626379701574E-16,0.));
#376=DIRECTION('',(4.28626379701575E-16,-1.,0.));
#377=DIRECTION('',(1.,4.28626379701574E-16,0.));
#378=DIRECTION('center_axis',(1.,4.28626379701575E-16,8.88178419700125E-17));
#379=DIRECTION('ref_axis',(-8.88178419700125E-17,-3.80696700565129E-32,
1.));
#380=DIRECTION('',(8.88178419700125E-17,3.80696700565129E-32,-1.));
#381=DIRECTION('',(4.28626379701575E-16,-1.,0.));
#382=DIRECTION('',(-8.88178419700125E-17,-3.80696700565129E-32,1.));
#383=DIRECTION('center_axis',(4.28626379701575E-16,-1.,0.));
#384=DIRECTION('ref_axis',(0.,0.,-1.));
#385=DIRECTION('',(-1.,-4.28626379701574E-16,0.));
#386=DIRECTION('center_axis',(0.,1.,0.));
#387=DIRECTION('ref_axis',(1.,0.,0.));
#388=DIRECTION('center_axis',(0.,1.,0.));
#389=DIRECTION('ref_axis',(1.,0.,0.));
#390=DIRECTION('center_axis',(0.,1.,0.));
#391=DIRECTION('ref_axis',(1.,0.,0.));
#392=DIRECTION('center_axis',(0.,1.,0.));
#393=DIRECTION('ref_axis',(1.,0.,0.));
#394=DIRECTION('center_axis',(0.,-1.,0.));
#395=DIRECTION('ref_axis',(1.,0.,0.));
#396=DIRECTION('',(0.,-1.,0.));
#397=DIRECTION('center_axis',(0.,1.,0.));
#398=DIRECTION('ref_axis',(1.,0.,0.));
#399=DIRECTION('',(0.,-1.,0.));
#400=DIRECTION('center_axis',(-4.28626379701574E-16,1.,0.));
#401=DIRECTION('ref_axis',(1.,0.,0.));
#402=DIRECTION('center_axis',(0.,1.,0.));
#403=DIRECTION('ref_axis',(1.,0.,0.));
#404=DIRECTION('center_axis',(0.,1.,0.));
#405=DIRECTION('ref_axis',(1.,0.,0.));
#406=DIRECTION('center_axis',(0.,1.,0.));
#407=DIRECTION('ref_axis',(1.,0.,0.));
#408=DIRECTION('center_axis',(0.,1.,0.));
#409=DIRECTION('ref_axis',(1.,0.,0.));
#410=DIRECTION('center_axis',(0.,-1.,0.));
#411=DIRECTION('ref_axis',(1.,0.,0.));
#412=DIRECTION('',(0.,-1.,0.));
#413=DIRECTION('center_axis',(0.,1.,0.));
#414=DIRECTION('ref_axis',(1.,0.,0.));
#415=DIRECTION('',(0.,-1.,0.));
#416=DIRECTION('center_axis',(-4.28626379701574E-16,1.,0.));
#417=DIRECTION('ref_axis',(1.,0.,0.));
#418=DIRECTION('center_axis',(0.,1.,0.));
#419=DIRECTION('ref_axis',(-1.,0.,0.));
#420=DIRECTION('',(-1.,0.,0.));
#421=DIRECTION('',(0.,0.,-1.));
#422=DIRECTION('center_axis',(1.,6.25477760352201E-16,0.));
#423=DIRECTION('ref_axis',(-6.25477760352201E-16,1.,0.));
#424=DIRECTION('',(-6.25477760352201E-16,1.,0.));
#425=DIRECTION('',(0.,0.,-1.));
#426=DIRECTION('center_axis',(0.,-1.,0.));
#427=DIRECTION('ref_axis',(1.,0.,0.));
#428=DIRECTION('',(1.,0.,0.));
#429=DIRECTION('',(0.,0.,-1.));
#430=DIRECTION('center_axis',(1.,3.49676543189026E-16,0.));
#431=DIRECTION('ref_axis',(-3.49676543189026E-16,1.,0.));
#432=DIRECTION('',(-3.49676543189026E-16,1.,0.));
#433=DIRECTION('',(0.,0.,-1.));
#434=DIRECTION('center_axis',(4.28626379701574E-16,-1.,0.));
#435=DIRECTION('ref_axis',(1.,4.28626379701574E-16,0.));
#436=DIRECTION('',(1.,4.28626379701574E-16,0.));
#437=DIRECTION('center_axis',(0.,0.,1.));
#438=DIRECTION('ref_axis',(1.,0.,0.));
#439=CARTESIAN_POINT('',(0.,0.,0.));
#440=CARTESIAN_POINT('Origin',(1.,31.5,0.));
#441=CARTESIAN_POINT('',(2.,32.5,-25.));
#442=CARTESIAN_POINT('',(8.32759823420195E-15,30.5,-25.));
#443=CARTESIAN_POINT('',(0.562500000000004,31.0625,-25.));
#444=CARTESIAN_POINT('',(0.,30.5,25.));
#445=CARTESIAN_POINT('',(0.,30.5,0.));
#446=CARTESIAN_POINT('',(2.,32.5,25.));
#447=CARTESIAN_POINT('',(0.562500000000004,31.0625,25.));
#448=CARTESIAN_POINT('',(2.,32.5,0.));
#449=CARTESIAN_POINT('Origin',(0.,32.5,0.));
#450=CARTESIAN_POINT('',(2.16150160049508E-14,-0.5,-25.));
#451=CARTESIAN_POINT('',(2.14007028151E-14,9.17290577070559E-30,-25.));
#452=CARTESIAN_POINT('',(1.41446705301519E-14,-0.5,25.));
#453=CARTESIAN_POINT('',(2.16150160049508E-14,-0.5,-25.));
#454=CARTESIAN_POINT('',(0.,0.,25.));
#455=CARTESIAN_POINT('Origin',(13.0544715447154,17.6955284552846,-25.));
#456=CARTESIAN_POINT('',(29.,32.5,-25.));
#457=CARTESIAN_POINT('',(0.,32.5,-25.));
#458=CARTESIAN_POINT('',(29.,25.4,-25.));
#459=CARTESIAN_POINT('',(29.,32.5,-25.));
#460=CARTESIAN_POINT('',(22.,25.4,-25.));
#461=CARTESIAN_POINT('',(29.,25.4,-25.));
#462=CARTESIAN_POINT('',(22.,9.42978035343462E-15,-25.));
#463=CARTESIAN_POINT('',(22.,25.4,-25.));
#464=CARTESIAN_POINT('',(5.00000000000002,2.14313189850788E-15,-25.));
#465=CARTESIAN_POINT('',(22.,9.42978035343462E-15,-25.));
#466=CARTESIAN_POINT('',(5.00000000000002,-0.499999999999998,-25.));
#467=CARTESIAN_POINT('',(5.00000000000002,2.14313189850788E-15,-25.));
#468=CARTESIAN_POINT('',(5.00000000000002,-0.499999999999998,-25.));
#469=CARTESIAN_POINT('Origin',(5.00000000000002,2.14313189850788E-15,-25.));
#470=CARTESIAN_POINT('',(5.00000000000001,2.14313189850787E-15,25.));
#471=CARTESIAN_POINT('',(5.00000000000002,2.14313189850787E-15,-12.5));
#472=CARTESIAN_POINT('',(5.00000000000001,-0.499999999999998,25.));
#473=CARTESIAN_POINT('',(5.00000000000001,2.14313189850787E-15,25.));
#474=CARTESIAN_POINT('',(5.00000000000001,-0.499999999999998,25.));
#475=CARTESIAN_POINT('Origin',(2.50000000000002,-0.499999999999999,0.));
#476=CARTESIAN_POINT('',(1.41446705301519E-14,-0.5,25.));
#477=CARTESIAN_POINT('Origin',(10.,24.,12.5));
#478=CARTESIAN_POINT('',(2.99999999999999,24.,12.5));
#479=CARTESIAN_POINT('Origin',(10.,24.,12.5));
#480=CARTESIAN_POINT('',(5.74999999999999,24.,12.5));
#481=CARTESIAN_POINT('Origin',(10.,24.,12.5));
#482=CARTESIAN_POINT('Origin',(10.,28.25,12.5));
#483=CARTESIAN_POINT('',(2.99999999999999,32.5,12.5));
#484=CARTESIAN_POINT('Origin',(10.,32.5,12.5));
#485=CARTESIAN_POINT('',(2.99999999999999,28.25,12.5));
#486=CARTESIAN_POINT('Origin',(10.,-33.8117636622643,12.5));
#487=CARTESIAN_POINT('',(5.74999999999999,0.,12.5));
#488=CARTESIAN_POINT('',(5.74999999999999,-33.8117636622643,12.5));
#489=CARTESIAN_POINT('Origin',(10.,0.,12.5));
#490=CARTESIAN_POINT('Origin',(10.,24.,-12.5));
#491=CARTESIAN_POINT('',(2.99999999999999,24.,-12.5));
#492=CARTESIAN_POINT('Origin',(10.,24.,-12.5));
#493=CARTESIAN_POINT('',(5.74999999999999,24.,-12.5));
#494=CARTESIAN_POINT('Origin',(10.,24.,-12.5));
#495=CARTESIAN_POINT('Origin',(10.,28.25,-12.5));
#496=CARTESIAN_POINT('',(2.99999999999999,32.5,-12.5));
#497=CARTESIAN_POINT('Origin',(10.,32.5,-12.5));
#498=CARTESIAN_POINT('',(2.99999999999999,28.25,-12.5));
#499=CARTESIAN_POINT('Origin',(10.,-33.8117636622643,-12.5));
#500=CARTESIAN_POINT('',(5.74999999999999,0.,-12.5));
#501=CARTESIAN_POINT('',(5.74999999999999,-33.8117636622643,-12.5));
#502=CARTESIAN_POINT('Origin',(10.,0.,-12.5));
#503=CARTESIAN_POINT('Origin',(29.,32.5,0.));
#504=CARTESIAN_POINT('',(29.,32.5,25.));
#505=CARTESIAN_POINT('',(0.,32.5,25.));
#506=CARTESIAN_POINT('',(29.,32.5,0.));
#507=CARTESIAN_POINT('Origin',(29.,25.4,0.));
#508=CARTESIAN_POINT('',(29.,25.4,25.));
#509=CARTESIAN_POINT('',(29.,32.5,25.));
#510=CARTESIAN_POINT('',(29.,25.4,0.));
#511=CARTESIAN_POINT('Origin',(22.,25.4,0.));
#512=CARTESIAN_POINT('',(22.,25.4,25.));
#513=CARTESIAN_POINT('',(29.,25.4,25.));
#514=CARTESIAN_POINT('',(22.,25.4,0.));
#515=CARTESIAN_POINT('Origin',(22.,8.88178419700125E-15,0.));
#516=CARTESIAN_POINT('',(22.,9.42978035343462E-15,25.));
#517=CARTESIAN_POINT('',(22.,25.4,25.));
#518=CARTESIAN_POINT('',(22.,9.42978035343462E-15,0.));
#519=CARTESIAN_POINT('Origin',(0.,0.,0.));
#520=CARTESIAN_POINT('',(22.,9.42978035343462E-15,25.));
#521=CARTESIAN_POINT('Origin',(13.0544715447154,17.6955284552846,25.));
#522=UNCERTAINTY_MEASURE_WITH_UNIT(LENGTH_MEASURE(0.01),#526,
'DISTANCE_ACCURACY_VALUE',
'Maximum model space distance between geometric entities at asserted c
onnectivities');
#523=UNCERTAINTY_MEASURE_WITH_UNIT(LENGTH_MEASURE(0.01),#526,
'DISTANCE_ACCURACY_VALUE',
'Maximum model space distance between geometric entities at asserted c
onnectivities');
#524=(
GEOMETRIC_REPRESENTATION_CONTEXT(3)
GLOBAL_UNCERTAINTY_ASSIGNED_CONTEXT((#522))
GLOBAL_UNIT_ASSIGNED_CONTEXT((#526,#528,#529))
REPRESENTATION_CONTEXT('','3D')
);
#525=(
GEOMETRIC_REPRESENTATION_CONTEXT(3)
GLOBAL_UNCERTAINTY_ASSIGNED_CONTEXT((#523))
GLOBAL_UNIT_ASSIGNED_CONTEXT((#526,#528,#529))
REPRESENTATION_CONTEXT('','3D')
);
#526=(
LENGTH_UNIT()
NAMED_UNIT(*)
SI_UNIT(.MILLI.,.METRE.)
);
#527=(
LENGTH_UNIT()
NAMED_UNIT(*)
SI_UNIT(.CENTI.,.METRE.)
);
#528=(
NAMED_UNIT(*)
PLANE_ANGLE_UNIT()
SI_UNIT($,.RADIAN.)
);
#529=(
NAMED_UNIT(*)
SI_UNIT($,.STERADIAN.)
SOLID_ANGLE_UNIT()
);
#530=SHAPE_DEFINITION_REPRESENTATION(#531,#532);
#531=PRODUCT_DEFINITION_SHAPE('',$,#534);
#532=SHAPE_REPRESENTATION('',(#330),#524);
#533=PRODUCT_DEFINITION_CONTEXT('part definition',#538,'design');
#534=PRODUCT_DEFINITION('SPM80C08-50-GR','SPM80C08-50-GR',#535,#533);
#535=PRODUCT_DEFINITION_FORMATION('A00',$,#540);
#536=PRODUCT_RELATED_PRODUCT_CATEGORY('SPM80C08-50-GR','SPM80C08-50-GR',
(#540));
#537=APPLICATION_PROTOCOL_DEFINITION('international standard',
'automotive_design',2009,#538);
#538=APPLICATION_CONTEXT(
'Core Data for Automotive Mechanical Design Process');
#539=PRODUCT_CONTEXT('part definition',#538,'mechanical');
#540=PRODUCT('SPM80C08-50-GR','SPM80C08-50-GR',
'Blocchetto L=50 mm M8 prof. cava 8 mm per GR-80',(#539));
#541=PRESENTATION_STYLE_ASSIGNMENT((#542));
#542=SURFACE_STYLE_USAGE(.BOTH.,#545);
#543=SURFACE_STYLE_RENDERING_WITH_PROPERTIES($,#549,(#544));
#544=SURFACE_STYLE_TRANSPARENT(0.);
#545=SURFACE_SIDE_STYLE('',(#546,#543));
#546=SURFACE_STYLE_FILL_AREA(#547);
#547=FILL_AREA_STYLE('',(#548));
#548=FILL_AREA_STYLE_COLOUR('',#549);
#549=COLOUR_RGB('',0.996078431372549,0.996078431372549,1.);
ENDSEC;
END-ISO-10303-21;
